BUSCADOR DE CANCIONES O ARTISTAS


Clases de guitarra
Aprender guitarra - cursos gratis de guitarra - Enchufa La Guitarra reune métodos y clases de guitarra eléctrica y acústica para principiantes y avanzados sobre como tocar las notas de guitarra y los acordes de nuestras canciones favoritas en tutoriales fáciles. Si tocas la guitarra, tienes una banda o proyecto de hacerla seguro estos cursos gratuitos de comprensión sencilla te serán de ayuda. Puedes compartir tu video tutorial de guitarra, piano, bajo o batería en la sección de comentarios y luego será publicado.

Incluye tu video tutorial! ó Pide una canción!

Por Fin Te Encontré TAB y acordes de guitarra (Cali Y El Dandee)



En este post compartimos a pedido de María Paula González Zambrano la tablatura del tema Por Fin Te Encontré de Cali Y El Dandee (la introducción) y 2 tutoriales con y sin cejilla dependiendo del nivel de aprendizaje de cada uno.





TAB de Por Fin Te Encontré (intro)


e|-----------------------|
B|---------------2-4/7-4-|
G|-4-3-1---1-3-4---------|
D|-------4---------------|
A|-----------------------|
E|-----------------------|

e|-------------------|
B|---4-7-7-7-5-4-4/5-|
G|-6-----------------|
D|-------------------|
A|-------------------|
E|-------------------|

e|-----------------|
B|-------5-7-5-4---|
G|-----4---------4-|
D|---6-------------|
A|-7---------------|
E|-----------------|

e|-----------------|
B|-----------------|
G|-8-6-4-6-6-6-6-6-|
D|-x-----4-4-4-4-4-|
A|-x---------------|
E|-----------------|


e|---------9-7-6-7-|
B|-----------------|
G|---8-6-4---------|
D|-4---------------|
A|-----------------|
E|-----------------|


e|-----------------|
B|-------4-5-7-7/9-|
G|-----4-----------|
D|---6-------------|
A|-6---------------|
E|-----------------|


e|-----------------|
B|-------5-7-5-4---|
G|-----4---------4-|
D|---6-------------|
A|-7---------------|
E|-----------------|


e|---------------------|
B|---------------------|
G|---4-6-6/8-8\6-6-4-3-|
D|-4-------------------|
A|---------------------|
E|---------------------|


e|-11-11-11-9-9------------|
B|--------------12-12-11-9-|
G|-------------------------|
D|-------------------------|
A|-------------------------|
E|-------------------------|


e|-12-12-12-11-11-11-9------|
B|---------------------12-9-|
G|--------------------------|
D|--------------------------|
A|--------------------------|
E|--------------------------|


e|-11-11-11-9-9-9-7---|
B|------------------7-|
G|--------------------|
D|--------------------|
A|--------------------|
E|--------------------|


e|-9-9-9-7-7-7-6-4---|
B|-----------------7-|
G|-------------------|
D|-------------------|
A|-------------------|
E|-------------------|







Acordes de Por Fin Te Encontré para guitarra (Cali Y El Dandee)


Ahora los tutoriales. El primer tutorial del usuario de youtube camposmusic explica cómo tocar Por Fin Te Encontré en guitarra acústica usando un capo o transporte en el traste 4.

De esta manera fácil los acordes son: Em, C, G, y D.






Para tocarlos sin cejilla entonces un tutorial que puede ser útil es el del usuario RASTALEX.

De esta manera los acordes son G#m, E, B y F#.






Este es el videoclip oficial en HD de Cali Y El Dandee - Por Fin Te Encontré junto a Juan Magan y Sebastián Yatra




También te puede interesar ver las 100 canciones de guitarra para principiantes
o la lista completa de canciones de guitarra del blog.

Like si eres fan de Cali Y El Dandee!

No hay comentarios:

Publicar un comentario en la entrada


afinar guitarra gratis