Adventure Of A Lifetime, Acordes en guitarra acústica (Coldplay)



Lo que viene es un tutorial del user de youtube GuitarEP en el que explica cómo tocar Adventure Of A Lifetime en guitarra acústica, la canción de Coldplay con los acordes fáciles y bien detallados.


La nueva canción pertenece al álbum A Head Full of Dreams, de este año 2015.

Para esta versión sencilla solo se necesitan 3 acordes simples: Dm, G y Am. Lo importante es dominar el ritmo funk.




Acordes de Adventure Of A Lifetime para guitarra (Coldplay)









En cuanto a la melodía principal o riff, esta es la tablatura:


-17-12--17-12----12-------------------
--------------15----15-13-------------
--------------------------14-12-14-12-
--------------------------------------
--------------------------------------
--------------------------------------

-17-12--17-12----12-------------------
--------------15----15-13-------------
--------------------------14-12-14-12-
--------------------------------------
--------------------------------------
--------------------------------------
  
-15-12--15-12----12-------------------
--------------15----15-13-------------
--------------------------14-12-14-12-
--------------------------------------
--------------------------------------
--------------------------------------

-15-12--15-12----12-------------------
--------------15----15-13-------------
--------------------------14-12-14-12-
--------------------------------------
--------------------------------------
--------------------------------------




Con guitarra eléctrica suena algo así (incluye TABs):





Este es el videoclip oficial de Coldplay - Adventure Of A Lifetime





También te puede interesar ver las 100 canciones en guitarra para principiantes
o la lista completa de canciones de guitarra del blog.

Like si eres fan de Coldplay!

No hay comentarios:

Publicar un comentario


afinar guitarra gratis