Arroz con leche (guitarra fácil) tablatura para niños



Esta es una de las primeras melodías que un niño aprende. Una canción de autor anónimo cuyo origen se remonta a la Europa del siglo XIV.


Se trata de la popular canción del Arroz con Leche, cuya melodía también se conoce como La viudita del conde Laurel.




Cómo tocar el arroz con leche en guitarra acústica




Tablatura fácil:


|------0------|---------0---|
|----1---1--1-|----1--1---3-|
|-0-----------|-0-----------|
|-------------|-------------|
|-------------|-------------|
|-------------|-------------|

|-0--1--0-------------|
|----------3--1--0--0-|
|---------------------|
|---------------------|
|---------------------|
|---------------------|

|-------------|--------0----|
|-------0--1--|-----1-----1-|
|-0--2--------|--0----------|
|-------------|-------------|
|-------------|-------------|
|-------------|-------------|

|--------0-----|
|-----1-----3--|
|--0-----------|
|--------------|
|--------------|
|--------------|

|---0--1--0--------------|
|------------3--1--0--0--|
|------------------------|
|------------------------|
|------------------------|
|------------------------|

|-------------------|
|--------0--1-------|
|--0--2------------·|
|------------------·|
|-------------------|
|-------------------|

La letra de la canción cambia de acuerdo al país donde se cante


Arroz con leche, me quiero casar
con una señorita de San Nicolás
Que sepa coser, que sepa bordar
que sepa abrir la puerta para ir a jugar

Yo soy la viudita del barrio del Rey
me quiero casar y no sé con quien
Con ésta sí, con ésta no
con esta señorita me caso yo






Para los que prefieran la partitura del Arroz Con Leche pueden ver este otro video:




También te puede interesar ver más canciones fáciles para guitarra
o la lista completa de canciones para guitarra del blog.

No hay comentarios:

Publicar un comentario


afinar guitarra gratis