Tema de Halloween (TAB) melodías de películas famosas



Una nueva melodía de películas famosas. En este caso se trata del tema de Halloween (La noche de Halloween), la popular película de terror de los años '70 que puso nerviosos a millones de espectadores a lo largo del mundo.





(Debajo hay algunos tutoriales fáciles)

-9-----9-----9---10---
---7-7---7-7---7----7-
---------------------- (6 veces)
----------------------
----------------------
----------------------

-8-----8-----8---9----
---6-6---6-6---6---6--
---------------------- (2 veces)
----------------------
----------------------
----------------------

-9-----9-----9---10---
---7-7---7-7---7----7-
---------------------- (2 veces)
----------------------
----------------------
----------------------

-8-----8-----8---9----
---6-6---6-6---6---6--
---------------------- (2 veces)
----------------------
----------------------
----------------------

-7-----7-----7---8----
---5-5---5-5---5---5--
---------------------- (2 veces)
----------------------
----------------------
----------------------

-6-----6-----6---7----
---4-4---4-4---4---4--
---------------------- (2 veces)
----------------------
----------------------
----------------------

-7-----7-----7---8----
---5-5---5-5---5---5--
---------------------- (2 veces)
----------------------
----------------------
----------------------

-6-----6-----6---7----
---4-4---4-4---4---4--
---------------------- (2 veces)
----------------------
----------------------
----------------------

----------------------
-7-----7-----7---8----
---4-4---4-4---4---4--
---------------------- (9 veces)
----------------------
----------------------






El siguiente video tutorial incluye la tablatura (TAB) a velocidad normal y a velocidad lenta:





Si es muy pequeña la tablatura puedes ver este otro video más grande:




También te puede interesar ver más temas de películas famosas en guitarra,

otras canciones fáciles para guitarra

o la lista completa de canciones para guitarra del blog.


No hay comentarios:

Publicar un comentario en la entrada


afinar guitarra gratis