Cómo tocar Sadness And Sorrow en guitarra acústica (naruto)



Un tutorial del usuario de youtube EJ CM que muestra cómo tocar Sadness And Sorrow en guitarra acústica (Naruto) con la tablatura en pantalla.


Primero a velocidad normal y luego en velocidad lenta nota por nota. (Debajo del video está la tablatura completa)





Tablatura de Sadness And Sorrow -Naruto para guitarra acústica:









E|--2-----2-----2-----2-----|   
B|--0-----0-----0-----0-----|   
G|--------------------------|   
D|-----2-----2-----2-----2--|   
A|--------------------------|
E|--------------------------|

E|--0-----0-----0-----0------|   
B|--0-----0-----0-----0------|   
G|---------------------------|   
D|-----2-----2-----2-----2---|   
A|---------------------------|
E|---------------------------|


E|--------------------------|
B|--5-----5-----5-----5-----|
G|--4-----4-----4-----4-----|
D|-----4-----4-----4-----4--|
A|--------------------------|
E|--------------------------|

E|---------------------------|
B|--3-----3-----3-----3------|
G|--4-----4-----4-----4------|
D|-----4-----4-----4-----4---|
A|---------------------------|
E|---------------------------|


E|--------------------------|
B|--3-----3-----3-----3-----|
G|--2-----2-----2-----2-----|
D|-----2-----2-----2-----2--|
A|--------------------------|
E|--------------------------|

E|--------------------0------|
B|--1-----1-----1------------|
G|--2-----2-----2-----2------|
D|-----2-----2-----2-----2---|
A|---------------------------|
E|---------------------------|


E|--5-----5-----5-----5-----|
B|--------------------------|
G|--4-----4-----4-----4-----|
D|-----4-----4-----4-----4--|
A|--------------------------|
E|--------------------------|

E|--7-----7------------------|
B|--------------7-----7------|
G|--4-----4-----4-----4------|
D|-----4-----4-----4-----4---|
A|---------------------------|
E|---------------------------|


E|--------3--2--------|
B|----------------3---|
G|--------------------|
D|-----2--------------|
A|--------------------|
E|--0-----------------|

E|--------3--2--------------|
B|----------------0---------|
G|--------------------------|
D|-----2--------------------|
A|--------------------------|
E|--0-----------------------|


E|--2--0-------0----0--3---|
B|--------0----3-----------|
G|-------------0-----------|
D|-------------2-----------|
A|-------------------------|
E|--0----------------------|

E|--5------------------------|
B|--------5------------------|
G|--------5-----5-----5------|
D|-----5-----5-----5-----5---|
A|--3------------------------|
E|---------------------------|


E|--3--------3--2--3--5-----|
B|--------3--------------3--|
G|-----2--------------------|
D|--0-----------0-----------|
A|--------------------------|
E|--------------------------|

E|--7-----7---5--------2----|
B|------------------3-------|
G|-----7---------2----------|
D|--5---------0-------------|
A|--------------------------|
E|--------------------------|


E|--2--0-------0----0--3--|
B|--------0----3----------|
G|-------------0----------|
D|-------------2----------|
A|------------------------|
E|--0---------------------|

E|--5------------------------|
B|--------5------------------|
G|--------5-----5-----5------|
D|-----5-----5-----5-----5---|
A|--3------------------------|
E|---------------------------|


E|--3--------3--2--5-------|
B|--------3-----------3----|
G|-----2-------------------|
D|--0-----------0----------|
A|-------------------------|
E|-------------------------|

E|--0-----3--2--------|
B|--------------3-----|
G|--------------------|
D|-----2--------------|
A|--------------------|
E|--0-----------------|


E|--------3--2----0--2--3--|
B|----------------0--------|
G|-------------------------|
D|-----2-------------------|
A|-------------------------|
E|--0----------------------|

E|--5--7--0--3--2---------|
B|--------0-----------3---|
G|-----------------2------|
D|--------------0---------|
A|--3---------------------|
E|------------------------|


E|--0----------0------|
B|-------0---------0--|
G|--------------------|
D|----2-----2---------|
A|--------------------|
E|--0-----------------|

E|--3--5--3--2-------7---|
B|--------------3--------|
G|--------0--------------|
D|--------------0----7---|
A|--3--------------------|
E|-----------------------|


E|--7-----------5-----2-----|
B|-----------0-----------3--|
G|--------0--------2--------|
D|-----0--------0-----------|
A|--------------------------|
E|--3-----------------------|

E|--5--7--0--3-----2---------|
B|--------------------3------|
G|--------0--------------2---|
D|--------------0------------|
A|--3------------------------|
E|---------------------------|


E|--0----------3--2---0--|
B|-----------------------|
G|--------0--------------|
D|-----2-----------------|
A|-----------------------|
E|--0--------------------|

E|--3--5--3--2----------------|
B|--------1-----3-----0----0--|
G|----------------------------|
D|-----2--------0-------------|
A|--3-------------------------|
E|----------------------------|


E|--0-----0-----------0-----|
B|-----------1-----------1--|
G|-----0-----------0--------|
D|--------------------------|
A|--3-----------3-----------|
E|--------------------------|

E|--------0-----------0------|
B|-----------0-----------0---|
G|-----0-----------0---------|
D|---------------------------|
A|--2-----------2------------|
E|---------------------------|


E|--------0-----------0-----|
B|-----------1-----------1--|
G|-----0-----------0--------|
D|--------------------------|
A|--3-----------3-----------|
E|--------------------------|

E|--------0-----------0------|
B|-----------0-----------0---|
G|-----0-----------0---------|
D|---------------------------|
A|--2-----------2------------|
E|---------------------------|


E|--------0-----------0-----|
B|-----------1-----------1--|
G|-----0-----------0--------|
D|--------------------------|
A|--3-----------3-----------|
E|--------------------------|

E|--------0------0---|
B|-----------0---0---|
G|-----0---------0---|
D|-------------------|
A|--2------------2---|
E|-------------------|




También te puede interesar ver la lista de canciones de dibujos animados para guitarra y animé,

o la lista completa de canciones para guitarra del blog.

No hay comentarios:

Publicar un comentario en la entrada


afinar guitarra gratis