Cómo tocar La Pantera Rosa TAB (Tutorial) Pink Panther Theme



Cómo tocar La Canción de la Pantera Rosa en guitarra - Pink Panther Theme song. Notas de guitarra de la canción de Henry Mancini.


Para muchos adultos esta melodía forma parte de sus recuerdos de la niñez, donde la TV era en blanco y negro y no existían las empresas de cable.

(Ver la lista completa de canciones de dibujos animados para guitarra)

A continuación encontrarás una tablatura fácil. Para ver tutoriales desplázate al final.


TAB:


A continuación una tablatura más sencilla sin tocar doble cuerda:


E--------------------
B--------------------
G--------------------
D--------------------   (x2)
A--4/5--6/7----------
E------------7--0----

E-----------------------------
B-----------------------------
G-------------------------5p4-
D-----------4h5------4h5----­--
A-4/5--6/7------6h7-----------
E-----------------------------

E----------------------­-----
B---------------------------
G---------------------------
D-----5--8--7---5-----------
A--7----------------7p5--7--
E---------­------------------

E-----------------------------
B-----------------------------
G------------------------5p4--
D----------4h5------4h5-------
A-4/5--6/7------6h7-----------
E-----------------------------

E-------------
B-------------
G--------9--8-
D-----5-------
A--7----------
E-------------

E----------------------------
B----------------------------
G-----------9--7-------------
D----------------9--7--5-----
A-4/5--6/7----------------7--
E----------------------------

E--------------------------
B--------------------------
G----------------­----------
D---8p7-(x4)--5------------
A--­--------------7p5--7--7-
E--------------------------






Tutoriales:







También te puede interesar:

ver las 100 canciones de guitarra nivel principiantes

O la lista completa de TABLATURAS



4 comentarios:

  1. muy buena pero escribila en tablatura porque no te puedo seguir, gracias

    ResponderEliminar
  2. esta bueno pero podrias poner la tabletura sino me pierdo

    ResponderEliminar
  3. Respuestas
    1. EnchufaLaGuitarra20 de abril de 2016, 0:41

      Había un problema cuando se miraba la tablatura desde un celular, pero ya está solucionado y se entiende perfectamente, saludos!

      Eliminar


afinar guitarra gratis