BUSCADOR DE CANCIONES O ARTISTAS


Clases de guitarra
Aprender guitarra - cursos gratis de guitarra - Enchufa La Guitarra reune métodos y clases de guitarra eléctrica y acústica para principiantes y avanzados sobre como tocar las notas de guitarra y los acordes de nuestras canciones favoritas en tutoriales fáciles. Si tocas la guitarra, tienes una banda o proyecto de hacerla seguro estos cursos gratuitos de comprensión sencilla te serán de ayuda. Puedes compartir tu video tutorial de guitarra, piano, bajo o batería en la sección de comentarios y luego será publicado.

Incluye tu video tutorial! ó Pide una canción!

Como tocar Smoke On The Water, Deep Purple -Tutorial Guitarra (video tab)



Como tocar Smoke On The Water en guitarra - Deep Purple notas de guitarra, acordes y riff. El tema más famoso de Ritchie Blackmore. Album: Machine Head




lección de guitarra gratis en video tutorial

Como tocar el Solo de guitarra de Smoke On the Water (Humo Sobre el Agua), video tutorial



Letra y acordes

      G5
   We all came out to Montreux

                  F5    G5
   On the lake Geneva shoreline

   To make records with a mobile

F5            G5
   We didn't have much time


   Frank Zappa and the Mothers

                      F5    G5
   Were at the best place around

   But some stupid with a flare gun

                  F5      G5
   Burned the place to the ground



        C5          Ab5
      Smoke on the water

       G5
      Fire in the sky

        C5          Ab5
      Smoke on the water


(riff 2 veces)


G5
   They burned down the gambling house

                   F5     G5
   It died with an awful sound

   Funky and Claude was running in and out

F5          G5
   Pulling kids out of the ground


   When it all was over

                    F5          G5
   We had to find another place

   Swiss time was running out

                            F5            G5
   It seemed that we would lose the race



        C5          Ab5
      Smoke on the water

       G5
      Fire in the sky

        C5          Ab5
      Smoke on the water


(riff 2 veces)


(solo de guitarra)

(riff 2 veces)



G5
   We ended up at the Grand Hotel

          F5      G5
   It was empty, cold and bare

   But with the Rolling Trucks Stones thing just outside

F5              G5
   We made our music there


   With a few red lights an' a few old beds

               F5       G5
   We made a place to sweat

   No matter what we get out of this

          F5               G5
   I know,   I know we'll never forget



        C5          Ab5
      Smoke on the water

       G5
      Fire in the sky

        C5          Ab5
      Smoke on the water


(riff)



Smoke On The Water - Deep Purple
Tab




Guitar Solo
2.
G5
E E. +H S S S E E +Q E E E E
|----------------------|--------------------------|
|----------------------|--------------------------|
|-------------------10-|-10-12--(12)--12----10-12-|
|---5----(5)--10h12----|-----------------12-------|
|---5----(5)-----------|--------------------------|
|---3----(3)-----------|--------------------------|


E E +Q E S S S S S S
|----------------------------------------|
|-10b12----------------------------------|
|--------12-(12)--12----10-12p10----10---|
|--------------------12----------12------|
|----------------------------------------|
|----------------------------------------|


S S S S S S S S S S S S S S S S
|-------------------------------------------------|
|-------------------------------------------------|
|-12p10----10-12p10----10-12p10----10-12p10----10-|
|-------12----------12----------12----------12----|
|-------------------------------------------------|
|-------------------------------------------------|


|-----3-----| |-----3-----|
Q Q Q Q Q Q +Q S S S S E Q S S
|-------------------------------------|
|-13b15-13b15-13b15-13b15-13b15-13b15-|
|-------------------------------------|
|-------------------------------------|
|-------------------------------------|
|-------------------------------------|




|--------------------------------13b15===|
|-(13)b15--13----11----11-----11---------|
|-------------12----12----12-------------|
|----------------------------------------|
|----------------------------------------|
|----------------------------------------|
|------3-------| |------3-------| +Q S S S S S S S S S S S S S S S S |-(13)--10----------------------------------------------| |----------13-11-------11-13p11----11-13p11----11-13p11-| |----------------12-12----------12----------12----------| |-------------------------------------------------------| |-------------------------------------------------------| |-------------------------------------------------------| E E +Q +E S S S S S S |-----------------------10-----10-13p10-------| |----13b15--(13)--(13)-----13-----------13----| |-12------------------------------------------| |---------------------------------------------| |---------------------------------------------| |---------------------------------------------| |------3-------| |------3-------| |-----3-----| S S S S S S S S S S S S Q Q Q |-10h13p10----10h13p10----10h13p10----13b15-13b15-13b15-| |----------13----------13----------13-------------------| |-------------------------------------------------------| |-------------------------------------------------------| |-------------------------------------------------------| |-------------------------------------------------------| |--3--| E E E E +Q E E Q E E +E S S S S S S S |-13b15-13b15-13b15-13b15-(13)b15--13b15-13b15-| |----------------------------------------------| |----------------------------------------------| |----------------------------------------------| |----------------------------------------------| |----------------------------------------------|






|-13b15--13b15-13b15==(13)r13-10-13p10-13p10-----|
|--------------------------------------------13--|
|------------------------------------------------|
|------------------------------------------------|
|------------------------------------------------|
|------------------------------------------------|
|--3--| S S S S S E S +E S S S S E. |-10-13p10----------------------------------| |----------13-11-10-------------------------| |-------------------12-(12)-10h12p10----10--| |------------------------------------12-----| |-------------------------------------------| |-------------------------------------------| |----------------------------| |----------------------------| |-/12--10h12p10----10\-------| |---------------12-------/12-| |----------------------------| |----------------------------|


|-------------------------------|
|----11-10-11-13-11-13-11-10-13-|
|-12----------------------------|
|-------------------------------|
|-------------------------------|
|-------------------------------|



E E E E E Q. E E E E E E E E
|----10----10-13-13b15---|-15----15-17-18-18pb20r18-17-|
|-11----13---------------|----18-----------------------|
|------------------------|-----------------------------|
|------------------------|-----------------------------|
|------------------------|-----------------------------|
|------------------------|-----------------------------|


E E +H E E +E E E E Q. E
|-15-----------------18-|
|----18-(18)b20---------|
|-----------------------|
|-----------------------|
|-----------------------|
|-----------------------|

|-(18)b20-18b20-18b20-18b20-18b20---------|
|----------------------------------18b20==|
|-----------------------------------------|
|-----------------------------------------|
|-----------------------------------------|
|-----------------------------------------|



+E E E E Q E E +E E E E Q E E
|-------------------------------|
|-(18)r18-15-18-18b20-----------|
|------------------------12b14==|
|-------------------------------|
|-------------------------------|
|-------------------------------|

|---------------------------------|
|------13-------13----------------|
|=(12)----12b14----12b14----12b14-|
|---------------------------------|
|---------------------------------|
|---------------------------------|


\1
+E E +H E E +Q e e e e e e
|-------------------------|
|---------10-(10)------13-|
|-(12)b14-----------------|
|-------------------------|
|-------------------------|
|-------------------------|

|--------------------------------------------|
|-
(13)b15-13b15-13b15-13b15-13b15-13b15-13b15
-|
|--------------------------------------------| |--------------------------------------------| |--------------------------------------------| |--------------------------------------------|



|---------------------------------------------------------------|
|-13b15-13b15-13b15-13b15-13b15-13b15-13b15-13b15-13b15-13b15-|
|---------------------------------------------------------------|
|---------------------------------------------------------------|
|---------------------------------------------------------------|
|---------------------------------------------------------------|
|---------------------------------------------------------------| |-13b15-13b15-13b15-(13)b14-13b14-13b14-13b14-13b14-13b14r13-13-| |---------------------------------------------------------------| |---------------------------------------------------------------| |---------------------------------------------------------------| |---------------------------------------------------------------|




|------------------------------|
|-13b15-15r13---------10b12----|
|-------------12--12-----------|
|------------------------------|
|------------------------------|
|------------------------------|
+E E Q E E E E +E E E E Q Q |----------------------------|---------------------------| |-(10)b12--------------------|------11-------13b15===13--| |---------12-12--10-12-10-12-|-(12)----12-10-------------| |----------------------------|---------------------------| |----------------------------|---------------------------| |----------------------------|---------------------------| D.S. al Coda \1 ~~~~ |--3--| E E E E E S S S E E S S S S +H. |-------------------------------|------------------|| |-13r13-11----13-11h13p11-13-10-|------------------|| |----------12-------------------|-10h12-10h12-(12)-|| |-------------------------------|------------------|| |-------------------------------|------------------|| |-------------------------------|------------------|| Outro & G5 G5 Bb5 C5 G5 Bb5 DbC5 E E +H. E E E E Q E E E E E E Q Q |--------------||-----------------|---------------| |--------------||o----------------|---------------| |--------------||------3---5------|---3---6S5-----| |---5-(5)------||--5---3---5----5-|---3---6S5-----| |---5-(5)------||o-5---1---3----5-|---1---4S3-----| |---3-(3)------||--3------------3-|---------------| G5 Bb5 C5 Bb5 G5 E E E E Q E E E E +H Q 4x |----------------|------------------|| |----------------|-----------------o|| |-----3---5----3-|------------------|| |-5---3---5----3-|---5-(5)----------|| |-5---1---3----1-|---5-(5)---------o|| |-3--------------|---3-(3)----------|| |-------------|------------| |-------------|------------| |-------------|------------| |-5-------3-5-|-(5)--------| |-5-------3-5-|-(5)--------| |-3-------1-3-|-(3)--------|

|--------------|----------------|
|--------------|----------------|
|-5-6-5----3---|----------------|
|-5-6-5----3-3-|-(3)-5-(5)------|
|-3-4-3----1-3-|-(3)-5-(5)------|
|------------1-|-(1)-3-(3)------|
|-----------------|---------------| |o----------------|---------------| |------3---5------|---3---6S5-----| |--5---3---5----5-|---3---6S5-----| |o-5---1---3----5-|---1---4S3-----| |--3------------3-|---------------|
|----------------|-------------|
|----------------|------------o|
|-----3---5----3-|-(3)---------|
|-5---3---5----3-|-(3)-5-5-----|
|-5---1---3----1-|-(1)-5-5----o|
|-3--------------|-----3-3-----|



Free Time Cadenza
G5 Bb5 C5
E E E E Q S S S S E S S S S S S S S E S S S S
|--------------------||-----------------------------|
|--------------------||-----------------------------|
|-----3---5------3-5-||-6-6-5-3---5-3-------3---5-3-|
|-5---3---5----5-----||---------5-----5-3-5---5-----|
|-5---1---3----------||-----------------------------|
|-3------------------||-----------------------------|


|-3-| |-3-| |-3-|
S S S S S E S S S E S S S S S S S
|-------------------------------------|
|-----------------------------------3-|
|---3-5p3---3-5p3---3-5p3---3-5-5b7---|
|-5-------5-------5-------5-----------|
|-------------------------------------|
|-------------------------------------|


|-3-| |-3-| |-3-|
Q E E E E E E E E E E E +H. Wx5
|-------6---------3-------|-------------|---------|
|-8b10----6-3---3---3-----|-------------|---------|
|-------------6-------6-5-|-3-5-(5)-----|---------|
|-------------------------|-------------|---------|
|-------------------------|-------------|---------|
|-------------------------|-------------|---------|


H E E E E E E E E Q E E
|-----------------|--------------------------------------|
|-----------11-13-|-13b15-13b15-13b15-13b15-13b15--13-11-|
|--------12-------|--------------------------------------|
|-----------------|--------------------------------------|
|-----------------|--------------------------------------|
|-----------------|--------------------------------------|


E E E E E E E E E e e e e e e e
|------------------------------|----10-11-12-13-14-15-16--|
|-13b15-13-11-13b15------11-13-|-14-----------------------|
|---------------------12-------|--------------------------|
|------------------------------|--------------------------|
|------------------------------|--------------------------|
|------------------------------|--------------------------|


Bb5G5
e e H. Wx2 W E E Q H
|-17-18-19b21----|--------|--------|-------------------|
|----------------|--------|--------|-------------------|
|----------------|--------|--------|-3-----------------|
|----------------|--------|--------|-3--5--------------|
|----------------|--------|--------|-1--5--------------|
|----------------|--------|--------|----3--------------|

Fuente: thehighwaystar.com -


Tambien te puede interesar:
la lista completa de canciones para guitarra del blog
Aprender a tocar Sometimes I Feel Like Screaming con guitarra

2 comentarios:

  1. y yo que buscaba smonk on the walter para aprender como tocar me havian pasado mal el titulo de la cancion

    ResponderEliminar
    Respuestas
    1. ay pero que bruto eres chango pues asi ni modo

      Eliminar


afinar guitarra gratis