BUSCADOR DE CANCIONES O ARTISTAS


Clases de guitarra
Aprender guitarra - cursos gratis de guitarra - Enchufa La Guitarra reune métodos y clases de guitarra eléctrica y acústica para principiantes y avanzados sobre como tocar las notas de guitarra y los acordes de nuestras canciones favoritas en tutoriales fáciles. Si tocas la guitarra, tienes una banda o proyecto de hacerla seguro estos cursos gratuitos de comprensión sencilla te serán de ayuda. Puedes compartir tu video tutorial de guitarra, piano, bajo o batería en la sección de comentarios y luego será publicado.

Incluye tu video tutorial! ó Pide una canción!

Como tocar Caught Somewhere in Time de Iron Maiden con guitarra



Caught Somewhere in Time - Iron Maiden
Album: Somewhere in Time
lección gratis en video




Fuente: lqstudios.com


Tambien te puede interesar:
Aprender a tocar Wasted Years con guitarra


Caught Somewhere in Time - Iron Maiden

Standard tuning (E A D G B E) (I use "." for palm mutes)


Intro: key of E minor(?)


E 12-0-0-0-7-0-0-0-8-0-0-0-5-0-0-0-7-0-0-3-0-0-0-5-0-0-0-2-0-0-0-3-0-0-0
B ----------------------------------------------------------------------
G ----------------------------------------------------------------------
D ----------------------------------------------------------------------
A ----------------------------------------------------------------------
E ----------------------------------------------------------------------






(repeat this 3 times)
E -5-0-0-2-0-0-3--------------------------------------------------------
B ----------------------------------------------------------------------
G ----------------------------------------------------------------------
D ----------------------------------------------------------------------
A ----------------------------------------------------------------------
E ----------------------------------------------------------------------






(then...) D


E 12-0-0-0-7-0-0-0-8-0-0-0-5-0-0-0-7-0-0-3-0-0-0-5-0-0-0-2-----0-0------
B -------------------------------------------------------------3-3------
G -------------------------------------------------------------2-2------
D -------------------------------------------------------------0-0------
A ----------------------------------------------------------------------
E ----------------------------------------------------------------------
(let ring out)


Verse: (play rhythm using all down strokes for tighter feel)


D E5 D G D
. . . . . . . . . .
E ----------------------------------------------------------------------
B ----------------------------------------------------------------------
G ----------------------------------------------------------------------
D --------7 / 9--9--9--9-9-9-9-9-9-9-9 \ 7--7/12-12-12-12-12-12-12-12-12-12-12-12---
A --------5 / 7--7--7--7-7-7-7-7-7-7-7 \ 5--5/10-10-10-10-10-10-10-10-10-10-10-10-12
E --------------------------------------------------------------------10
"From the..." "Across the seven..."


D E5 D G
. . . . . . . . . . . . .
E ----------------------------------------------------------------------
B ----------------------------------------------------------------------
G ----------------------------------------------------------------------
D --------------------------------7 / 9--9--9--9-9-9-9-9-9-9-9 \ 7--7/12
A 12-12-12-12-12-12-12-12-12\-0-0-5 / 7--7--7--7-7-7-7-7-7-7-7 \ 5--5/10
E 10-10-10-10-10-10-10-10-10\-------------------------------------------
"I traveled..."


D G C
. . . . . . . . . .
E ---------------------------------------------------------3---3---3----
B ---------------------------------------------------------4---4---4----
G ---------------------------------------------------------5---5---5----
D -12-12-12-12-12-12-12----------------------12-12-12-12 \ 5-5-5-5-5-5--
A -10-10-10-10-10-10-10-12-12-12-12-12-12-12-10-10-10-10 \ 3-3-3-3-3-3--
E ----------------------10-10-10-10-10-10-10----------------------------
"But now it seems..."


D E5 D G D
. . . . . . . . . .
E 3--3------------------------------------------------------------------
B 4--4------------------------------------------------------------------
G 5--5------------------------------------------------------------------
D 5--5-----7 / 9--9--9--9-9-9-9-9-9-9-9 \ 7-7/12-12-12-12-12-12-12-12---
A 3--3-----5 / 7--7--7--7-7-7-7-7-7-7-7 \ 5-5/10-10-10-10-10-10-10-10-12
E --------------------------------------------------------------------10
"I'm just a stranger to myself..."


G C D E5
. . . . .
E -----------------------------------------3----------------------------
B -----------------------------------------4----------------------------
G -----------------------------------------5----------------------------
D ---------------------------12-12-12-12 \ 5--5--5--5--5--5-5-5-5/7-7/9-
A 12-12-12-12-12-12-12-12-12-10-10-10-10 \ 3--3--3--3--3--3-3-3-3/5-5/7-
E 10-10-10-10-10-10-10-10-10--------------------------------------------
"I close


G D
. . . . . . . . .
E ----------------------------------------------------------------------
B ----------------------------------------------------------------------
G ----------------------------------------------------------------------
D 9-9-9-9-9-9-9-9-9-9/12-12-12-12-12-12-12-12---------------------------
A 7-7-7-7-7-7-7-7-7-7/10-10-10-10-10-10-10-10-12-12-12-12-12-12-12-12-12
E --------------------------------------------10-10-10-10-10-10-10-10-10
my eyes... And I think of home..."


A D E5 G D
. . . . . . . . .
E ---------------------------------------------12-12--------------------
B ---------------------------------------------12-12--------------------
G ---------------------------------------------12-12--------------------
D --------7 / 9--9--9--9-9-9-9-9-9-9-9-9/12-12-12-12\-------------------
A 12\-0-0-5 / 7--7--7--7-7-7-7-7-7-7-7-7/10-10-10-10\12--12--12--12-12--
E 10\------------------------------------------------10--10--10--10-10--
"Another city goes by..." "In the night..."


G C D E5 G
. . . . .
E ----------------------------------------------------------------------
B ----------------------------------------------------------------------
G ----------------------------------------------------------------------
D 12-12-12-12 \ 5--(5)-----(5)----7-7-7 / 9-9-9-9-9-9-9-9-9-9/12-12-12--
A 10-10-10-10 \ 3--(3)-----(3)----5-5-5 / 7-7-7-7-7-7-7-7-7-7/10-10-10--
E ----------------------------------------------------------------------
"Ain't it funny..." "And my heart..."


D G C


E --------------------------------3--(5)-----(3)------------------------
B --------------------------------4--(4)-----(4)------------------------
G --------------------------------5--(5)-----(5)------------------------
D ------------------12-12-12-12 \ 5--(5)-----(5)------------------------
A 12--12--12--12-12-10-10-10-10 \ 3--(3)-----(3)------------------------
E 10--10--10--10-10-----------------------------------------------------
"And will be till my dying day!"


========================================================================
Chorus:
Guitar I
G C A D C A E D A# G
E 3--------------3------------------------------------------------------
B 3--------------3------------------------------------------------------
G 0------5---2---2------5---2-------------------------------------------
D 0------5---2---0------5---2----------7------11-11-11-12-12-12-12-12-12
A x------3---0----------3---0---2------5-------9--9--9-10-10-10-10-10-10
E 3-----------------------------0---------------------------------------
"So..." (This part can be done different
"Face up..." ways, but this sounds cool -
So does using an octave of G)


Guitar II
G C A D C A E5 D C
E ----------------------------------------------------------------------
B ----------------------------------------------------------------------
G -------5---2---7------5---2----------------------------5-5-5-5-5-5-5-5
D 5------5---2---7------5---2---9------7-------5-5-5-5-5-x-x-x-x-x-x-x-x
A 5------3---0---5------3---0---7------5-------3-3-3-3-3-3-3-3-3-3-3-3-3
E 3---------------------------------------------------------------------


========================================================================




Verse II


Chorus


Intro riff again


Into solo which starts with some 3 - 5 - 7 (?) fret tapping
on the high E, then goes ballistic in E minor...
I'll leave that up to your creative imagination.
The backing rhythm is simple: D5-slide up to-E5, D5, C5
(lot's of palm mutes)


Chorus X2


then intro riff again...but after hammering the G (3rd fret, high E)






E 12-0-0-0-7-0-0-0-8-0-0-0-5-0-0-0-7-0-0-3-0-0-0-5-0-0-0-2-0-0-0-3-
B -----------------------------------------------------------------
G -----------------------------------------------------------------
D -----------------------------------------------------------------
A -----------------------------------------------------------------
E -----------------------------------------------------------------




finish it off with a two guitar harmony that's (something) like this:
========================================================================
Guitar I
E5
E --------------------------0----(0)----(0)----(0)----------------------
B --------------------------0----(0)----(0)----(0)----------------------
G /9---7---5~---4-----------0----(0)----(0)----(0)----------------------
D ------------------5---0---9----(9)----(9)----(9)----------------------
A --------------------------7----(7)----(7)----(7)----------------------
E --------------------------0----(0)----(0)----(0)----------------------
(let ring out - feedback)


Guitar II
. . E
E --------------------------0----(0)----(0)----(0)----------------------
B --------------------------0----(0)----(0)----(0)----------------------
G -2---0--------------------0----(0)----(0)----(0)----------------------
D ---------3~---2-----------2----(2)----(2)----(2)----------------------
A --------------------------2----(2)----(2)----(2)----------------------
E ------------------3---2---0----(0)----(0)----(0)----------------------
(let ring out - feedback)
========================================================================


Tabbed By: Christian "Swede" Liljequist (lilviking3@hotmail.com)


No hay comentarios:

Publicar un comentario en la entrada


afinar guitarra gratis